Guitar Tabs!

Here's some crap sorted by key: 

   ###    
  ## ##   
 ##   ##  
##     ## 
######### 
##     ## 
##     ## 

SLIDING INTO CHORDS!

A part / D part / E7 part
---------------6-7-
-4-5~----6-7~------
-5-6~----6-7~--6-7-
-6-7~----6-7~--5-6-
0------5-4-5~--6-7-
--------------0----

########  
##     ## 
##     ## 
########  
##     ## 
##     ## 
########  

CHORDS WITH NUMBERS AFTER THEM! (B)

B7 - E9 - B7 - F#9 - E9 - B7

------7----9-9/11---------------------
--9-8-x-9--9-x----99-1212-1111-1010---
--8-8-7-8--9-9----88-1111-1010-9-9--8-
--7-7-6-7----8----77-1010-9-9--8-8--x-
--x-x-7-x--x-9----xx-x-x--x-x--x-x--9-
--7-7---7--9------77-1010-9-9--8-8--7-
  
 B13 E9 C#m7 F#9  B13-D13-C#13-C13  B7  

OTHER STUFF:

---h10-7-9-7--------------10-10--------9----9----9--
-------7-9-7--12-11-10-9----------9----9----9----9--
8------7-9-7--11-10-9--8-8--------8----9----9----9--
7------6-8-6--10-9--8--7-7--------7----8----9----8--
9------7-9-7--x--x--x--x-9--------x----9----x----9--
7-------------10-9--8--7-7--------7---------9-------

SLIDIN CHORDS (Bm7)
-------------------------
3-3----88---5-5-3----7---
2-2----77---6-6-4----7---
------------7-7-5----7---
2-2-//-77----------------
-------------------------
Bm7    Em7  A   G    D

 ######  
##    ## 
##       
##       
##       
##    ## 
 ######  

AWESOME JAZZY CHORD PATTERN IN C

--------------------------------
---5---5-----5--5-------------------
---4---4-----5--5-------------------
---5---5-----5--5-------------------
-3---3----------------------------
--------3-4-5--5--------------------


x3545x C7
5x555x A7
x5x56x D7 
3x545x G?
3xxx33 G7
x3555x C 

***************
COOL C#m thang:

C#m / E / C#m / 5 / 7  
C#m / E / A / E 

-----------------------------------
-5-5------------5-7-9-7h9-10-9-7-5-
-----1--4-2-1----------------------
-----2-2-----2---------------------
-4-4------------4-5-7--------------
-----------------------------------

--------------------
-5-5-----------2----
-----1--4-2-1--2----
-----2-2-----2-2-2--
-4-4-------------2--
--------------------

------------2-4-2---2-4----
------------2-4-2---2-4----
------------2-4-2-1-2-4-1--
2-----2-h3h44-6-4-2-4-6-2--
2-2-4-------------2-----2--
--------------------------- 

########  
##     ## 
##     ## 
##     ## 
##     ## 
##     ## 
########  

COOL LICK IN THE KEY OF D

                                           /D
--------------------5-2-5-2------------0------
-10-7-10-7-5-3--------------5-3-------3-3-----
---------------------------------4p2h4---4----
0--0-0--0----------0--------------------------
----------------------------------------------
----------------------------------------------

######## 
##       
##       
######   
##       
##       
########

A CLASSIC BLUES RIFF IN E (REPEAT EACH SECTION AS NEEDED)

-------------------------------
----------------------3-2-3-2--
----------------------4-2-4-2--
----0-2-0-0--------------------
-0h2-----2-0--------0----0-----
0-----------3b-0-//3-----------

---0-0----------------------------------------------
3/5-5-5/3-0-------5-4--5-4--------------------------
-----------2-0----4-4--4-4---2h4-2-----0-2bp0-------
-----------------------------2h4-2--0h2-------2p0---
-----------------2----2----0-------0----------------
--------------0-3---------------------------------0-

**************

E BLUES MELODY 

-4p2-0----0------0--2p0--4--4--4-
-------2---2--0h2-2----2---------
-------2-2--2------x-----4---4---
-------------------------2-2--2--
---------------------------------
---------------------------------
                       (riff)
5--5---5-5-4-2--------4h554-2-0------
4---4----------------------------2---
--------------------------------2----
4-4---4------------------------------
-------------------------------------
-------------------------------------

***************************

SOME MORE BLUESY STUFF IN E 

(slap the crap out of E string)
---------------------------------
--------------------------2---4--
--1-2-1--1-2-1------------2---4--
---------------------------------
---------------------------0-----
-0-----0-----(3holdB-0)----------

A/C#  Am6 A7
------------------
--2-------2-------
--2----2--2---0h1-
--2----4--2---2---
-4-----3-4----2---
------------------

7b-0*-7b-0*-----------------------------------------9/11/9-7-----
8b-0*-8b-0*--5-----------------------------------7h9--------9----
-----------7b-------------------------4-6-4-4h6/9----------------
------------------------------2-2-4/6------6---------------------
-----------------------0h2h3h4-4---------------------------------
----------------0h2h3h4------------------------------------------

######## 
##       
##       
######   
##       
##       
##   

SWINGIN IN F
----------------------------------------
-------------------3---1---X------------
-------------------3---0---X------------
-7-6-5-4-----------3---2---X---------3~-
---------7-6-5-4-3---3-----------3-5----
-------------------------1---3/5--------

 ######   
##    ##  
##        
##   #### 
##    ##  
##    ##  
 ######  

USE YOUR THUMB/TRAVIS PICKING IN THE KEY OF G

       (i)      x2
--3-----3~-3---------------------3-----3--3---------
----3h5-3~--3---------5-55-3-------3h5-3---3----3-3-
-----------------------------4~---------------------
--0------0---0--------5-55-0-----0------0---0--0-0--
-------------------0-3-3----------------------------
3-------------3-----------------3------------3------
(t)
----------------------
-7-5-3----5-3---------
--------------3h4~----
-7-0-0----5-0---------
-5-----0h3------------
------------------3---
                           x2
-5-5-5-5-3-5--3-3-3-3-3-5-------------------
-7-7-7-5-3-5--5-5-5-3-3-5-------3-3--3---3--
--------------------------------4-4--4--4---
--------------------------------------------
------------------------------3--3--2--0----
7-7-7--------5-5-5-----------------------3--

************************

COOL JAZZY INTRO LICK (G)

Em9           D   *    C (use pinky)   G

--h14p12-12---10--12----------------------
12---------12-10--12--8-h10-12/10-(8)--8--
12------------11------9-----------(9)--7--
12------------12------10----------10---9--
--------------------------------------10--
------------------------------------------
   G                 E
-2/3--55-3-----------5--------
-2/3------5-3h5p3----5--------
-3/4-------------4---5--------
------------------------------
------------------------------
------------------------------
 C# C
-5--5--3-----5/7---
-5--4--3-----5/7---
-6--5--4-----5/7---
-------------------
-------------------
-------------------

*****************
STRETCHY G CHORDS

--------------------------7-5--2-0-----
-3--3-5-0--0-33--3-5-0----5-5--3-1-----
-4--4-4-4--4-44--4-4-4-----------------
---------------------------------------
--------------------------3-3--2-0-----
-3-3----3-3--33-3--3-3-----------------

***********************************

ANOTHER COOL CHORD PROGRESSION IN G 
-------------0---------------
---3---2---2--2-2--5-7--5-7--
---4---3--3-3--3---5-7--5-7--
---4---------------5-7--5-7--
-----3------------------3-5--
-3-----------------5-7-------


-------------
-8-7-5-------
-9-7-5-------
-9-7-5-------
-------------
-8-7-5-3-----


***************************
SOME ALTERNATE TUNING LICKS

E-A-E-A-C#-E
---------------
--0--0---------
---0---3--2----
-0--0---2--3---
0--------------
---------------

----------------
-1------1---0---
--2----------0--
---3---2---0--0-
------2---0-----
----------------

-5-2-0------5-2-0------5-2-0---------
------0h3-3------0-0--------0h3-3----
-----------0--------0------------0---
-------------------------------------
---------0--------0------------0-----
-------------------------------------

----------------
----0------0----
3h4--3-2-0--0---
---0------0-----

-------------------------------------
5-7-0-5-7-0-5-7-8-5-1-1----0---------
5-7-0-5-7-0-5-7-7-5-2-------0-0------
5-7-0-5-7-0-5-7-9-5-3-2---0--0-------
----------------------2--0-----------
-------------------------------------
*************************************